Guitar Tabs for Gördügüme Sevindim Tab

(/) Slide Up  (\) Slide Down  (h) Hammer On  (p) Pull Off  (b) Bend (r) Release (v) Vibrato (x) Muted

Tabs for Song : 

Song lyrics here
E|--------------------------------------------------------------------------------------------
B|--12h13-------13----12-13-15-13-12-12----------12-13-12-------------------12----------------
G|--------------------------------------------14----------14-14-------12-14----14-12h14-12----
D|--------------------------------------------------------------------------------------------
A|--------------------------------------------------------------------------------------------
E|--------------------------------------------------------------------------------------------

E|--------------------------------------------------------------------------------
B|--------------------------------------12----------------------------------------
G|--12-------------12-12h14-------12-14----14-12h14-12----------12-14-12----------
D|--------14-14-15-------------------------------------------15----------15-15----
A|--------------------------------------------------------------------------------
E|--------------------------------------------------------------------------------

E|-----------------------------------------
B|--------------------------------------12-
G|--------12----------------------12-14----
D|--15-14----15-14h15-14----14-15----------
A|-----------------------------------------
E|-----------------------------------------

Song lyrics here
E|--
B|--
G|--
D|--
A|--
E|--

Paste any tab in acousterr's tab maker and we'll play it !!!
Now supports capo and sound effects for vibrato/pull-off/hammer/bends/mutes etc !!! Checkout help section
tabs and chords, guitar tabs, music transcription, music technology, deep learning, music information retrieval, transcribe into tabs & chords, chordify, music renditions, songsterr, reverbnation, tabulature, bollywood chords, ultimate guitar, yousician, guitar lessons, acoustic guitar, electric guitar, guitar tuner, 911 tabs