Guitar Tabs for Hedgehog

(/) Slide Up  (\) Slide Down  (h) Hammer On  (p) Pull Off  (b) Bend (r) Release (v) Vibrato (x) Muted

Tabs for Song : 
BPM : 200

Song lyrics here 
E|--------------------------------------------------------------------------------
B|--------------------------------------------------------------------------------
G|--------------------------------------------------------------------------------
D|-----5-----12----7-----5-----12----7-----5-----12----7-----12----5-----7--------
A|--3-----10----5-----3-----10----5-----3-----10----5-----10----3-----5-----------
E|--------------------------------------------------------------------------------

E|--15-12--------------------------
B|--------15-15-12----------------
G|-----------------14-14-12-------
D|--------------------------------
A|--------------------------------
E|--------------------------------

E|--
B|--
G|--
D|--
A|--
E|--

Song lyrics here 
E|--
B|--
G|--
D|--
A|--
E|--

Use manual mode to free up cursor. Paste any tab in acousterr tab maker and we'll play it !!!

Guitar Tabs for Hedgehog






D|--12----11-------------16-16----16-16-16----16----16-16-16----16-16-16-16-16----------------------
A|--------------14-------------------------------------------------------------14----14-14-14----14-
F|--------------------------------------------------------------------------------------------------
C|--------------------------------------------------------------------------------------------------
G|--------------------------------------------------------------------------------------------------
D|--------------------------------------------------------------------------------------------------

D|--14----------------12----------------------16-------14--------12-------11-------------------
A|-----14----------------14----------------------14-------14-------14-------12-12-12/14-------
F|--------------------------------------------------------------------------------------------
C|--------------------------------------------------------------------------------------------
G|--------------------------------------------------------------------------------------------
D|--------------------------------------------------------------------------------------------

D|--16-------14-------12----11----------------------------------------------------------
A|-----14-------14-------14----12-12-12/14----------14-14-14-14-14-16-16-16-16-17\16/14-
F|--------------------------------------------------------------------------------------
C|--------------------------------------------------------------------------------------
G|--------------------------------------------------------------------------------------
D|--------------------------------------------------------------------------------------

D|--------------------------------------------------------------------------------------------------------
A|--14-14-14----14-14-14-------16-16-16----16-16-16-------17-17-17----17-17-17-------16-16-16----16-16-16-
F|--------------------------------------------------------------------------------------------------------
C|--------------------------------------------------------------------------------------------------------
G|--------------------------------------------------------------------------------------------------------
D|--------------------------------------------------------------------------------------------------------

D|--
A|--
F|--
C|--
G|--
D|--

D|--
A|--
F|--
C|--
G|--
D|--

D|-----
A|-----
F|-----
C|-----
G|-----
D|-----

D|-----
A|-----
F|-----
C|-----
G|-----
D|-----

D|--
A|--
F|--
C|--
G|--
D|--

D|--
A|--
F|--
C|--
G|--
D|--

D|--
A|--
F|--
C|--
G|--
D|--


D|--
A|--
F|--
C|--
G|--
D|--







Guitar Tabs for Hedgehog






D|--12----11-------------16-16----16-16-16----16----16-16-16----16-16-16-16-16----------------------
A|--------------14-------------------------------------------------------------14----14-14-14----14-
F|--------------------------------------------------------------------------------------------------
C|--------------------------------------------------------------------------------------------------
G|--------------------------------------------------------------------------------------------------
D|--------------------------------------------------------------------------------------------------

D|--14----------------12----------------------16-------14--------12-------11-------------------
A|-----14----------------14----------------------14-------14-------14-------12-12-12/14-------
F|--------------------------------------------------------------------------------------------
C|--------------------------------------------------------------------------------------------
G|--------------------------------------------------------------------------------------------
D|--------------------------------------------------------------------------------------------

D|--16-------14-------12----11----------------------------------------------------------
A|-----14-------14-------14----12-12-12/14----------14-14-14-14-14-16-16-16-16-17\16/14-
F|--------------------------------------------------------------------------------------
C|--------------------------------------------------------------------------------------
G|--------------------------------------------------------------------------------------
D|--------------------------------------------------------------------------------------

D|--------------------------------------------------------------------------------------------------------
A|--14-14-14----14-14-14-------16-16-16----16-16-16-------17-17-17----17-17-17-------16-16-16----16-16-16-
F|--------------------------------------------------------------------------------------------------------
C|--------------------------------------------------------------------------------------------------------
G|--------------------------------------------------------------------------------------------------------
D|--------------------------------------------------------------------------------------------------------

D|-----------------------------------------------------------------------------------------------------7-----7-----7--------7--9--7--7--------+
A|--14-------12-------------------------------------------------------------------9--9--9--9--9--9--------9-----9--------------------9--9--
F|-----------------------10-10-10-10-10-10-10-10----10-10/8--8--8--8--8--8--8--------------------------------------------------------------
C|-----------------------------------------------------------------------------------------------------------------------------------------
G|-----------------------------------------------------------------------------------------------------------------------------------------
D|-----------------------------------------------------------------------------------------------------------------------------------------

D|--
A|--
F|--
C|--
G|--
D|--

D|-----
A|-----
F|-----
C|-----
G|-----
D|-----

D|-----
A|-----
F|-----
C|-----
G|-----
D|-----

D|--
A|--
F|--
C|--
G|--
D|--

D|--
A|--
F|--
C|--
G|--
D|--

D|--
A|--
F|--
C|--
G|--
D|--


D|--
A|--
F|--
C|--
G|--
D|--







tabs and chords, guitar tabs, music transcription, music technology, deep learning, music information retrieval, transcribe into tabs & chords, chordify, music renditions, songsterr, reverbnation, tabulature, bollywood chords, ultimate guitar, yousician, guitar lessons, acoustic guitar, electric guitar, guitar tuner, 911 tabs