Falling Like The Stars - Guitar Tabs

(/) Slide Up  (\) Slide Down  (h) Hammer On  (p) Pull Off  (b) Bend (r) Release (v) Vibrato (x) Muted

Tabs for Song : 
BPM : 180

Capo 1st fret

                                                              I swear to God, when I come home                  I'm
E|------------------------------------------------------------0h3--3--0-----0-----------------------------------0h3--
B|--------1-----------1-----------1-----------1-----------1--------------3-----------1-----------1-----------1-------
G|-----0-----0-----0-----0-----0-----0-----0-----0-----0--------------------------0-----0-----0-----0-----0----------
D|-------------------------------------------------------------------------------------------------------------------
A|--3-----------3-----------3-----------3-----------3--------------3--------3--3-----------3-----------0-------------
E|-------------------------------------------------------------------------------------------------------------------
    
    gonna hold you so close                       I swear to God, when I come home I'll never let go
E|--3--0--------------------------------------------------0--3--0--------------------------------------------------
B|--------3--1--------1-----------1-----------1---1h3--3-----------------1---1h3--3-----1--------1-----------1-----
G|-----------------0-----0-----0-----0-----0--------------------------0--------------0--------0-----0-----0-----0--
D|-----------------------------------------------------------------------------------------------------------------
A|--0--------0--0-----------0--------------------------------------------------------------3-----------3-----------
E|--------------------------------------1--------------1--------1--1--------------1--------------------------------
                                      
                                      Like a river, I flow                               To the ocean I know
E|------------------------------------0h3--3--0-----0------------------------------------0h3--3--0--------------------
B|--------1-----------1-----------1--------------3-----------1-----------1-----------1--------------3--1--------1-----
G|-----0-----0-----0-----0-----0--------------------------0-----0-----0-----0-----0--------------------------0-----0--
D|--------------------------------------------------------------------------------------------------------------------
A|--3-----------3-----------3--------------3--------3--3-----------3-----------0--------------0--------0--0-----------
E|--------------------------------------------------------------------------------------------------------------------
                          
                          You pull me close,         guiding me home                                           
E|--------------------------------0--3--0--------------------------
B|--------1-----------1---1h3--3-----------------1---1h3--3-----1--
G|-----0-----0-----0--------------------------0--------------0-----
D|-----------------------------------------------------------------
A|--0--------------------------------------------------------------
E|--------------1--------------1--------1--1--------------1--------                                                                        
                                                 
                                                 And I need you to know that we're falling so fast                                   
E|------------------------------------------------------------------------------3-----0-------------------------------
B|--------1-----------1-----------1-----------1--1--3h5-----5-----3h5-----5-----------------3-----1-----3h5-----5-----
G|-----0-----0-----0-----0-----0-----0-----0-------------0-----0-------0-----0-----0-----0-----0-----0-------0-----0--
D|--------------------------------------------------------------------------------------------------------------------
A|--3-----------3-----------3-----------3-----------3-------------3-------------3-----------------------0-------------
E|--------------------------------------------------------------------------------------------------------------------
                 
                 We're falling like the stars                   Falling in love
E|----------------3-----0-----------------3/5--3--1--0-------------------------
B|--3h5-----5-----------------3-----1-------------------1-----1--1h3--3-----1--
G|-------0-----0-----0-----0-----0-----0-------------------0-------------0-----
D|-----------------------------------------------------------------------------
A|--0-------------0------------------------------------------------------------
E|----------------------------------------1-------------1-------------1--------
                                                
                                                And I'm not scared to say those words, with you I'm safe
E|------------------------------------------------------------------------------3-----0-------------------------------
B|--------1-----------1-----------1-----------1--1--3h5-----5-----3h5-----5-----------------3-----1-----3h5-----5-----
G|-----0-----0-----0-----0-----0-----0-----0-------------0-----0-------0-----0-----0-----0-----0-----0-------0-----0--
D|--------------------------------------------------------------------------------------------------------------------
A|--3-----------3-----------3-----------3-----------3-------------3-------------3-----------------------0-------------
E|--------------------------------------------------------------------------------------------------------------------
                  
                  We're falling like the stars, we're falling in love
E|----------------3-----0-----------------3/5--3--1--0-------------------------
B|--3h5-----5-----------------3-----1-------------------1-----1--1h3--3-----1--
G|-------0-----0-----0-----0-----0-----0-------------------0-------------0-----
D|-----------------------------------------------------------------------------
A|--0-------------0------------------------------------------------------------
E|----------------------------------------1-------------1-------------1--------
                                                              
                                                              I swear to God, I can see                          Four
E|------------------------------------------------------------0h3--3--0-----0------------------------------------0h3--
B|--------1-----------1-----------1-----------1-----------1--------------3-----------1-----------1-----------1--------
G|-----0-----0-----0-----0-----0-----0-----0-----0-----0--------------------------0-----0-----0-----0-----0-----------
D|--------------------------------------------------------------------------------------------------------------------
A|--3-----------3-----------3-----------3-----------3--------------3--------3--3-----------3-----------0--------------
E|--------------------------------------------------------------------------------------------------------------------
    
    kids and no sleep                             We'll have one on each knee, you and me
E|--3--0--------------------------------------------------0--3--0--------------------------------------------------
B|--------3--1--------1-----------1-----------1---1h3--3-----------------1---1h3--3-----1--------1-----------1-----
G|-----------------0-----0-----0-----0-----0--------------------------0--------------0--------0-----0-----0-----0--
D|-----------------------------------------------------------------------------------------------------------------
A|--0--------0--0-----------0--------------------------------------------------------------3-----------3-----------
E|--------------------------------------1--------------1--------1--1--------------1--------------------------------
                                     
                                     And when they've grown up                          You're still the girl in the 
E|------------------------------------0h3--3--0-----0------------------------------------0h3--3--0--------------------
B|--------1-----------1-----------1--------------3-----------1-----------1-----------1--------------3--1--------1-----
G|-----0-----0-----0-----0-----0--------------------------0-----0-----0-----0-----0--------------------------0-----0--
D|--------------------------------------------------------------------------------------------------------------------
A|--3-----------3-----------3--------------3--------3--3-----------3-----------0--------------0--------0--0-----------
E|--------------------------------------------------------------------------------------------------------------------
    
    club                  When I held your hair up   'cause you had too much                                    
E|--------------------------------0--3--0--------------------------
B|--------1-----------1---1h3--3-----------------1---1h3--3-----1--
G|-----0-----0-----0--------------------------0--------------0-----
D|-----------------------------------------------------------------
A|--0--------------------------------------------------------------
E|--------------1--------------1--------1--1--------------1--------                                                              
                                                 
                                                 And I need you to know that we're falling so fast                                   
E|------------------------------------------------------------------------------3-----0-------------------------------
B|--------1-----------1-----------1-----------1--1--3h5-----5-----3h5-----5-----------------3-----1-----3h5-----5-----
G|-----0-----0-----0-----0-----0-----0-----0-------------0-----0-------0-----0-----0-----0-----0-----0-------0-----0--
D|--------------------------------------------------------------------------------------------------------------------
A|--3-----------3-----------3-----------3-----------3-------------3-------------3-----------------------0-------------
E|--------------------------------------------------------------------------------------------------------------------
                 
                  We're falling like the stars                   Falling in love
E|----------------3-----0-----------------3/5--3--1--0-------------------------
B|--3h5-----5-----------------3-----1-------------------1-----1--1h3--3-----1--
G|-------0-----0-----0-----0-----0-----0-------------------0-------------0-----
D|-----------------------------------------------------------------------------
A|--0-------------0------------------------------------------------------------
E|----------------------------------------1-------------1-------------1--------
                                                 And I'm not scared to say those words, with you I'm safe
E|------------------------------------------------------------------------------3-----0-------------------------------
B|--------1-----------1-----------1-----------1--1--3h5-----5-----3h5-----5-----------------3-----1-----3h5-----5-----
G|-----0-----0-----0-----0-----0-----0-----0-------------0-----0-------0-----0-----0-----0-----0-----0-------0-----0--
D|--------------------------------------------------------------------------------------------------------------------
A|--3-----------3-----------3-----------3-----------3-------------3-------------3-----------------------0-------------
E|--------------------------------------------------------------------------------------------------------------------
                  
                  We're falling like the stars, we're falling in love
E|----------------3-----0-----------------3/5--3--1--0-------------------------
B|--3h5-----5-----------------3-----1-------------------1-----1--1h3--3-----1--
G|-------0-----0-----0-----0-----0-----0-------------------0-------------0-----
D|-----------------------------------------------------------------------------
A|--0-------------0------------------------------------------------------------
E|----------------------------------------1-------------1-------------1--------                                                           
                                                              
                                                              I swear to God, every day                          He
E|------------------------------------------------------------0h3--3--0-----0------------------------------------0h3--
B|--------1-----------1-----------1-----------1-----------1--------------3-----------1-----------1-----------1--------
G|-----0-----0-----0-----0-----0-----0-----0-----0-----0--------------------------0-----0-----0-----0-----0-----------
D|--------------------------------------------------------------------------------------------------------------------
A|--3-----------3-----------3-----------3-----------3--------------3--------3--3-----------3-----------0--------------
E|--------------------------------------------------------------------------------------------------------------------
    
    won't take you away                           'Cause without you, babe, I lose my way
E|--3--0--------------------------------------------------0--3--0--------------------------------------------------
B|--------3--1--------1-----------1-----------1---1h3--3-----------------1---1h3--3-----1--------1-----------1-----
G|-----------------0-----0-----0-----0-----0--------------------------0--------------0--------0-----0-----0-----0--
D|-----------------------------------------------------------------------------------------------------------------
A|--0--------0--0-----------0--------------------------------------------------------------3-----------3-----------
E|--------------------------------------1--------------1--------1--1--------------1--------------------------------
             
             Oh, I'm in love      Oh, I'm in love      Oh, I'm in love                                       Oh, I'm
E|--------------------------------------------------------------------------------------------------------------------
B|--------1--1---3/5--5-----5-----1---3/5--5-----5-----1---3h5--5-----5-----------1-----------1-----------1--1---3/5--
G|-----0-----------------0-----0--------------0-----0--------------0-----0-----0-----0-----0-----0-----0--------------
D|--------------------------------------------------------------------------------------------------------------------
A|--3-----------------3--------------------3--------------------3-----------0-----------0-----------0-----------------
E|--------------------------------------------------------------------------------------------------------------------
    
    in love     Oh, I'm in love      Oh, I'm in love                                               
E|----------------------------------------------------
B|--5-----5-----1---3/5--5-----5-----1---3/5\3/5\3\1--
G|-----0-----0--------------0-----0-------------------
D|----------------------------------------------------
A|-------------------------------------------------3--
E|--1--------------------1----------------------------
                                                 
                                                 And I need you to know that we're falling so fast                                   
E|------------------------------------------------------------------------------3-----0-------------------------------
B|--------1-----------1-----------1-----------1--1--3h5-----5-----3h5-----5-----------------3-----1-----3h5-----5-----
G|-----0-----0-----0-----0-----0-----0-----0-------------0-----0-------0-----0-----0-----0-----0-----0-------0-----0--
D|--------------------------------------------------------------------------------------------------------------------
A|--3-----------3-----------3-----------3-----------3-------------3-------------3-----------------------0-------------
E|--------------------------------------------------------------------------------------------------------------------
                  
                  We're falling like the stars                   Falling in love
E|----------------3-----0-----------------3/5--3--1--0-------------------------
B|--3h5-----5-----------------3-----1-------------------1-----1--1h3--3-----1--
G|-------0-----0-----0-----0-----0-----0-------------------0-------------0-----
D|-----------------------------------------------------------------------------
A|--0-------------0------------------------------------------------------------
E|----------------------------------------1-------------1-------------1--------
                                                 
                                                 And I'm not scared to say those words, with you I'm safe
E|------------------------------------------------------------------------------3-----0-------------------------------
B|--------1-----------1-----------1-----------1--1--3h5-----5-----3h5-----5-----------------3-----1-----3h5-----5-----
G|-----0-----0-----0-----0-----0-----0-----0-------------0-----0-------0-----0-----0-----0-----0-----0-------0-----0--
D|--------------------------------------------------------------------------------------------------------------------
A|--3-----------3-----------3-----------3-----------3-------------3-------------3-----------------------0-------------
E|--------------------------------------------------------------------------------------------------------------------
                  
                  We're falling like the stars, we're falling in love
E|----------------3-----0-----------------3/5--3--1--0----------------------------------------------
B|--3h5-----5-----------------3-----1-------------------1-----1--1h3--3-----1--------1-----------1--
G|-------0-----0-----0-----0-----0-----0-------------------0-------------0--------0-----0-----0-----
D|--------------------------------------------------------------------------------------------------
A|--0-------------0------------------------------------------------------------3-----------3--------
E|----------------------------------------1-------------1-------------1-----------------------------

Use manual mode to free up cursor. Paste any tab in acousterr tab maker and we'll play it !!!

About Falling Like the Stars : The song was written by James Arthur, Anders Albin Höjer, Jamie Grey and produced by Bradley Spence and Alex Beitzke . The song peaked at number 25 on the UK Singles Chart . It was released as a digital download and for streaming on 10 May 2019 . Arthur said: "This song perfectly represents what I do best, I think" The core of the album has got that classic acoustic, honest thing going on . A music video to accompany the release of "Falling Like the Stars" was first released onto YouTube on 24 May 2019 at a total length of four minutes and fifteen seconds . The video has It was released in 2019. It was released as part of album You. The track was release in 2019. Falling Like the Stars has a significant contribution from artist(s) James Arthur,James Arthur,Anders Albin Höjer,Jamie Grey,Bradley Spence,Alex Beitzke. It is related to the album(s) - You.

About James Arthur - James Arthur rose to fame after winning the ninth series of The X Factor . His debut single, a cover of Shontelle's "Impossible", debuted at number one on the UK Singles Chart . Since then, it has gone on to sell over 2.5 million copies worldwide . James Arthur released his debut studio album in November 2013 . The album debuted and peaked at number two on the UK Albums Chart . The follow-up single, "You're Nobody 'til Somebody Loves You", reached number 2 on UK Singles Chart . Arthur parted ways with Simon Cowell's record label Syco . In 2015, he signed a new deal with Columbia Records to release his second studio album in 2016 . James Arthur's most popular songs include - Impossible. James Arthur's music is influenced by genre(s) - pop r&b soul.

About You (James Arthur album) : You (stylized in all caps) is the third studio album by British singer-songwriter James Arthur . It has spawned the singles "Naked", "Empty Space", "Falling Like the Stars", "Treehouse", "Finally Feel Good", and "Quite Miss Home" Arthur embarked on the You – Up Close and Personal tour until 29 October 2019 . Arthur told 1883 Magazine in June 2019 that it was "pretty much finished" He described it as "diverse, conceptual, soulful" and "definitely not introspective" as compared to his previous album . The Arts Desk gave it a mixed review, but said "rune away at least four soporific ballads, though, and you'll find a decent pop-soul album" You (James Arthur album)'s most popular songs include Naked,Empty Space,Falling Like the Stars,Treehouse,Finally Feel Good,You,Quite Miss Home. It had a contribution from notable artists like James Arthur. It had an affiliation to bands - You.

tabs and chords, guitar tabs, music transcription, music technology, deep learning, music information retrieval, transcribe into tabs & chords, chordify, music renditions, songsterr, reverbnation, tabulature, bollywood chords, ultimate guitar, yousician, guitar lessons, acoustic guitar, electric guitar, guitar tuner, 911 tabs