Guitar Tabs for Enthronement Of Third Antichrist

(/) Slide Up  (\) Slide Down  (h) Hammer On  (p) Pull Off  (b) Bend (r) Release (v) Vibrato (x) Muted

Tabs for Song : 
BPM : 100

Song lyrics here
E|--------------------------------------------------
B|--------------------------------------------------
G|--1--1--1--1--1--1--1--1--------------------------
D|--3--3--3--3--2--2--2--2--------------------------
A|--3--3--3--3--2--2--2--2--5--5--6--5--4--4--4--4--
E|--------------------------3--3--3--3--2--2--2--2--

Song lyrics here
E|--------------------------------------------------------------------------------------------------
B|--------------------------------------------------------------------------------------------------
G|-----------8--4--8-----------------8--4--8-----------------8--4--8-----------------8--4--8--------
D|--------------------------------------------------------------------------------------------------
A|-----6--5-----------5--6-----6--5-----------5--6-----6--5-----------5--6-----6--5-----------5--6--
E|--5-----------------------5-----------------------4-----------------------4-----------------------



E|--------------------------------------------------------------------------------------------------
B|--------------------------------------------------------------------------------------------------
G|-----------1--4--1-----------------1--4--1--------------------------------------------------------
D|--------3-----------3-----------3-----------3-----------6--5--6-----------------6--5--6-----------
A|-----3-----------------3-----3-----------------3-----6-----------6-----6-----6-----------6-----6--
E|--1-----------------------1-----------------------4-----------------7-----4-----------------7-----

BPM: 300

E|-----------------------------------------------------------------------------------------------------------------------------------------------------------------------------------------------------
B|-----------------------------------------------------------------------------------------------------------------------------------------------------------------------------------------------------
G|-----------1-----------1-----------1-----------1-----------1-----------1-----------1-----------1-----------5-----------5-----------5-----------5-----------8-----------8--------8-----------8--------
D|--------3-----------3-----------3-----------3-----------2-----------2-----------2-----------2-----------7-----------7-----------7-----------7-----------10----------10-------------10----------10----
A|-----3-----------3-----------3-----------3-----------2-----------2-----------2-----------2-----------7-----------7-----------7-----------7-----------10----------10----------10----------10----------
E|--1-----------1-----------1-----------1-----------0-----------0-----------0-----------0-----------5-----------5-----------5-----------5-----------8-----------8-----------8-----------8--------------


Paste any tab in acousterr's tab maker and we'll play it !!!
Now supports capo and sound effects for vibrato/pull-off/hammer/bends/mutes etc !!! Checkout help section
tabs and chords, guitar tabs, music transcription, music technology, deep learning, music information retrieval, transcribe into tabs & chords, chordify, music renditions, songsterr, reverbnation, tabulature, bollywood chords, ultimate guitar, yousician, guitar lessons, acoustic guitar, electric guitar, guitar tuner, 911 tabs