Bon Jovi - Dead Or Alive Solo - Guitar Tabs

(/) Slide Up  (\) Slide Down  (h) Hammer On  (p) Pull Off  (b) Bend (r) Release (v) Vibrato (x) Muted

Tabs for Song : Dead or alive solo
BPM : 200

Song lyrics here 
E|--------------------------------------------------------------------13-15b17----15b17----15b17----------------------------
B|--------------------------------------------------------------13-15-------------------------------------------------------
G|--------------------------------------------------------12-14-------------------------------------------------------------
D|-----------------------------------3--5--5--5--5--3-----------------------------------------------------5--3--0--5--5--7--
A|--5--3--5-----5--3--5-----5--3--5-----------------------------------------------------------------0--0-----------3--3--5--
E|--------------------------------------------------------------------------------------------------------------------------

E|-----------------------------------------------------------------------------13-------------------------------------
B|-----------------------------------------------------------------------13----------13-12-10-------------------------
G|--------------------------------------------------------------------12----12----12----------------------------------
D|--------3--------------3--5--5--3-----0--3--0-----------3--5--3-----------------------------------------------------
A|--3--5-----5--0--3--5--------------------------5--3--5-----------------------------------------5-----------0--3--5--
E|--------------------------------------------------------------------------------------------------5--4--3-----------

Song lyrics here 
E|--
B|--
G|--
D|--
A|--
E|--

Use manual mode to free up cursor. Paste any tab in acousterr tab maker and we'll play it !!!

About Wanted Dead or Alive (Bon Jovi song) : The song was written by Jon Bon Jovi and Richie Sambora . It is from their 1986 album Slippery When Wet . It was released in 1987 as the album's third single . In 2001 a live version from the album One Wild Night Live 1985–2001 was released as a single featuring a promotional music video . In 2003 a new version was released on the album This Left Feels Right and this version was also released The Deadliest Catch theme song is the theme song for the Discovery Channel show . It is It was released in 1987. It was released as part of album Slippery When Wet. The genre is hard rock. The track was release in 1987. Wanted Dead or Alive (Bon Jovi song) has a significant contribution from artist(s) Jon Bon Jovi,Richie Sambora. It is related to the album(s) - Slippery When Wet. The track has an affiliation to the band(s) - Bon Jovi.

About Jon Bon Jovi - John Francis Bongiovi Jr. is the founder and frontman of the band Bon Jovi . He is best known as the founder of the Grammy Award-winning rock band, which was formed in 1983 . Bon Jovi has released 14 studio albums with his band . In the 1990s, he starred in the films Moonlight and Valentino and U-571 . He has also appeared on television in Sex and the West Wing and Sex and The West Wing . Bon Jovi was inducted into the Songwriters Hall of Fame in 2009 . In 1996, People Magazine named him one of the "50 Most Beautiful People In The World" In 2000, People awarded him the title "Sexiest Rock Star" Jon Bon Jovi had an affiliation to band(s) - Bon Jovi. Jon Bon Jovi's music is influenced by genre(s) - rock hard rock glam metal arena rock pop rock country rock heavy metal.

About Slippery When Wet : Slippery When Wet is the third studio album by American rock band Bon Jovi . It was produced by Bruce Fairbairn, with recording sessions between January and July 1986 at Little Mountain Sound Studios in Vancouver, British Columbia, Canada . The album features many of the best-known songs, including "You Give Love a Bad Name" Slippery When Wet spent eight weeks at No. 1 on the U.S. Billboard 200 chart . The album is one of the top 100 best-selling albums in the United States . It was named by Billboard as the top-selling album of 1987 . Bon Jovi changed its approach for the next album, with a more mainstream sound than the heavier first two albums . Hiring Desmond Child as a collaborator, the band wrote 30 songs and auditioned them for local New Jersey teenagers . Slippery When Wet's most popular songs include You Give Love a Bad Name,Livin' on a Prayer,Wanted Dead or Alive. It had a contribution from notable artists like Bruce Fairbairn. It had an affiliation to bands - Bon Jovi. Its music is influenced by genres - hard rock glam metal.

tabs and chords, guitar tabs, music transcription, music technology, deep learning, music information retrieval, transcribe into tabs & chords, chordify, music renditions, songsterr, reverbnation, tabulature, bollywood chords, ultimate guitar, yousician, guitar lessons, acoustic guitar, electric guitar, guitar tuner, 911 tabs