Danger Zone Solo - Guitar Tabs

(/) Slide Up  (\) Slide Down  (h) Hammer On  (p) Pull Off  (b) Bend (r) Release (v) Vibrato (x) Muted

Tabs for Song : Danger Zone Solo
BPM : 200

Song lyrics here 
E|--------------------------------------------------------------------------
B|--14b16----14b16----14b16v------------------------------------------------
G|-----------------------------13v11-13p11-13p11-13b15----11v------11-------
D|-----------------------------------------------------------13-13----------
A|--------------------------------------------------------------------------
E|--------------------------------------------------------------------------

E|-----------------------------------------------------------------------------------------------------------
B|--------11h14p11-------11h14p11-------11h14p11-------11h14p11-------11h14p11-------11h14p11-------11h14p11-
G|--13b15----------13b15----------13b15----------13b15----------13b15----------13b15----------13b15----------
D|-----------------------------------------------------------------------------------------------------------
A|-----------------------------------------------------------------------------------------------------------
E|-----------------------------------------------------------------------------------------------------------

E|-----------------------------------------------------------------------------------------------------------
B|-----------14-11-14-11-------------------------------------------------------------------21b22-21-19-21-21b23
G|--13v------------------13-11-13-11-------------------------------13b15-13-11-13-11-------------------------
D|-----------------------------------13-11-13-11----------11-13----------------------13v---------------------
A|-----------------------------------------------13-11-13----------------------------------------------------
E|-----------------------------------------------------------------------------------------------------------

Song lyrics here 
E|--
B|--
G|--
D|--
A|--
E|--

Use manual mode to free up cursor. Paste any tab in acousterr tab maker and we'll play it !!!

About Danger Zone (song) : The song was one of the hit singles from the soundtrack to the 1986 American motion picture Top Gun . Giorgio Moroder composed by music composed by Moroder and lyrics written by Tom Whitlock . Top Gun soundtrack of 1986 is one of best selling of all time . Film producers Jerry Bruckheimer and Don Simpson had over 300 songs to employ on Top Gun . With the help of songwriter Tom Whitlock, he composed "Danger Zone" The band Toto was originally intended to perform the track, but legal conflicts prevented this . Legal conflicts between the It was released in 1986. It was released as part of album Top Gun. The genre is hard rock new wave. The track was release in 1986. Danger Zone (song) has a significant contribution from artist(s) Giorgio Moroder,Tom Whitlock,Kenny Loggins,Top Gun.

tabs and chords, guitar tabs, music transcription, music technology, deep learning, music information retrieval, transcribe into tabs & chords, chordify, music renditions, songsterr, reverbnation, tabulature, bollywood chords, ultimate guitar, yousician, guitar lessons, acoustic guitar, electric guitar, guitar tuner, 911 tabs