Guitar Tabs for Cml

(/) Slide Up  (\) Slide Down  (h) Hammer On  (p) Pull Off  (b) Bend (r) Release (v) Vibrato

Tabs for Song : 

Base 1
E|--------------------------------------------------------------------------------------------------
B|--------------------------------------------------------------------------------------------------
G|--------------------------------------------------------------------------------------------------
D|--------------------------------------------------------------------------------------------------
A|-----------5-----------7-----------7-----5-----3-----------5-----------7-----------7-----5-----3--
E|--0--0--0--3--0--0--0--5--0--0--0--5--0--3--0--1--0--0--0--3--0--0--0--5--0--0--0--5--0--3--0--1--

Base 2
E|-----------------------------------------------------------------------------------------------
B|-----------------------------------------------------------------------------------------------
G|-----------------------------------------------------------------------------------------------
D|-----------------------------------------------------------------------------------------------
A|--5--5--5--5--4--5--6-----------------------------5--5--5--5--4--5--3--------------------------
E|--3--3--3--3--2--3--4-----0--0--0-----0--0--0-----3--3--3--3--2--3--1-----0--0--0-----0--0--0--
Lead
E|--------------------------------------------------------------------------------------------------------------
B|--------------------------------------------------------------------------------------------------------------
G|--------------------------------------------------------------------------------------------------------------
D|-----------4--3--4--------------------------------------4--3--4-----------------------------------------------
A|--------4--------------5--4--3-----------------------4--------------5--4--3-----------------------------------
E|--3--5-----------------------------5--4--3-----3--5--------------------------5--4--0--0--0--0--0--0--0--0--0--

E|-----------------------------------------------------------------------------------------------
B|-----------------------------------------------------------------------------------------------
G|-----------------------------------------------------------------------------------------------
D|-----------------------------------------------------------------------------------------------
A|---5/-7\5--3--2--3--5------------------------------5/-7\5--3--2--5--3--------------------------
E|---3/-5\3--1--0--1--3-----0--0--0-----0--0--0------3/-5\3--1--0--3--1-----0--0--0-----0--0--0--

sume goth base


E|-----------------------------------------------------------------------------------------------
B|-----------------------------------------------------------------------------------------------
G|-----------------------------------------------------------------------------------------------
D|-----------------------------------------------------------------------------------------------
A|--------------------------------------------------------------------------5--3-----------------
E|--0-----5-----3-----0-----5--3--0-----0-----0-----0-----5-----3-----0-----------5-----5-----5--





Now supports capo and sound effects for vibrato/pull-off/hammer/bends etc !!! Checkout help section
tabs and chords, guitar tabs, music transcription, music technology, deep learning, music information retrieval, transcribe into tabs & chords, chordify, music renditions, songsterr, reverbnation, tabulature, bollywood chords, ultimate guitar, yousician, guitar lessons, acoustic guitar, electric guitar, guitar tuner, 911 tabs