Guitar Tabs for Clumsy

(/) Slide Up  (\) Slide Down  (h) Hammer On  (p) Pull Off  (b) Bend (r) Release (v) Vibrato (x) Muted

Intro
E|--------------------------------------------------------------------------------------------
B|--------------------------------------------------------------------------------------------
G|--------------------------------------------------------------------------------------------
D|--------------------------------------------------------------------------------------------
A|--------------------------------------------------------------------------------------------
E|--7--7--7--7--7--7--7--7--4--4--4--4--4--4--4--4--2--2--2--2--2--2--2--2--2--2--2--2--2--2--

Verse
E|--------------------------------------------------------------------------------------------
B|--------------------------------------------------------------------------------------------
G|--------------------------------------------------------------------------------------------
D|--------------------------------------------------------------------------------------------
A|--------------------------------------------------------------------------------------------
E|--7--7--7--7--7--7--7--7--4--4--4--4--4--4--4--4--2--2--2--2--2--2--2--2--2--2--2--2--2--2--

E|--------------------------------------------------------------------------------------------
B|--------------------------------------------------------------------------------------------
G|--------------------------------------------------------------------------------------------
D|--------------------------------------------------------------------------------------------
A|--------------------------------------------------------------------------------------------
E|--7--7--7--7--7--7--7--7--4--4--4--4--4--4--4--4--2--2--2--2--2--2--2--2--2--2--2--2--2--2--

E|--------------------------------------------------------------------------------------------
B|--------------------------------------------------------------------------------------------
G|--------------------------------------------------------------------------------------------
D|--------------------------------------------------------------------------------------------
A|--------------------------------------------------------------------------------------------
E|--7--7--7--7--7--7--7--7--4--4--4--4--4--4--4--4--2--2--2--2--2--2--2--2--2--2--2--2--2--2--


Chorus
E|-----------------------------------------------------------------------
B|-----------------------------------------------------------------------
G|-----------------------------------------------------------------------
D|-----------------------------------------------------------------------
A|-----------------------------------------------5--5--5--5--5--5--5--5--
E|--0--0--0--0--0--0--0--0--3--3--3--3--3--3--3--------------------------

E|-----------------------------------------------------------------------
B|-----------------------------------------------------------------------
G|-----------------------------------------------------------------------
D|-----------------------------------------------------------------------
A|-----------------------------------------------5--5--5--5--5--5--5--5--
E|--0--0--0--0--0--0--0--0--3--3--3--3--3--3--3--------------------------

E|-----------------------------------------------------------------------
B|-----------------------------------------------------------------------
G|-----------------------------------------------------------------------
D|-----------------------------------------------------------------------
A|-----------------------------------------------5--5--5--5--5--5--5--5--
E|--0--0--0--0--0--0--0--0--3--3--3--3--3--3--3--------------------------

Bridge
E|--------------------------------------------------------------------------------------------
B|--------------------------------------------------------------------------------------------
G|--------------------------------------------------------------------------------------------
D|--------------------------------------------------------------------------------------------
A|-----------------------3--3--3--3--3-----------------3--3--3--3--3--------------------------
E|--5--5--5--5--5--5--5-----------------5--5--5--5--5-----------------5--5--5--5--5--5--5--5--


Verse
E|--------------------------------------------------------------------------------------------
B|--------------------------------------------------------------------------------------------
G|--------------------------------------------------------------------------------------------
D|--------------------------------------------------------------------------------------------
A|--------------------------------------------------------------------------------------------
E|--7--7--7--7--7--7--7--7--4--4--4--4--4--4--4--4--2--2--2--2--2--2--2--2--2--2--2--2--2--2--

E|--------------------------------------------------------------------------------------------
B|--------------------------------------------------------------------------------------------
G|--------------------------------------------------------------------------------------------
D|--------------------------------------------------------------------------------------------
A|--------------------------------------------------------------------------------------------
E|--7--7--7--7--7--7--7--7--4--4--4--4--4--4--4--4--2--2--2--2--2--2--2--2--2--2--2--2--2--2--

E|--------------------------------------------------------------------------------------------
B|--------------------------------------------------------------------------------------------
G|--------------------------------------------------------------------------------------------
D|--------------------------------------------------------------------------------------------
A|--------------------------------------------------------------------------------------------
E|--7--7--7--7--7--7--7--7--4--4--4--4--4--4--4--4--2--2--2--2--2--2--2--2--2--2--2--2--2--2--

Chorus
E|-----------------------------------------------------------------------
B|-----------------------------------------------------------------------
G|-----------------------------------------------------------------------
D|-----------------------------------------------------------------------
A|-----------------------------------------------5--5--5--5--5--5--5--5--
E|--0--0--0--0--0--0--0--0--3--3--3--3--3--3--3--------------------------

E|-----------------------------------------------------------------------
B|-----------------------------------------------------------------------
G|-----------------------------------------------------------------------
D|-----------------------------------------------------------------------
A|-----------------------------------------------5--5--5--5--5--5--5--5--
E|--0--0--0--0--0--0--0--0--3--3--3--3--3--3--3--------------------------

E|-----------------------------------------------------------------------
B|-----------------------------------------------------------------------
G|-----------------------------------------------------------------------
D|-----------------------------------------------------------------------
A|-----------------------------------------------5--5--5--5--5--5--5--5--
E|--0--0--0--0--0--0--0--0--3--3--3--3--3--3--3--------------------------


Bridge
E|-----------------------------------------------------------------------------------------------------------
B|-----------------------------------------------------------------------------------------------------------
G|-----------------------------------------------------------------------------------------------------------
D|-----------------------------------------------------------------------------------------------------------
A|-----------------------3--3--3--3--3-----------------3--3--3--3--3-----------------------------------------
E|--5--5--5--5--5--5--5-----------------5--5--5--5--5-----------------5--5--5--5--5--5--5--5--5--0--0--0--0--




Use manual mode to free up cursor. Paste any tab in acousterr tab maker and we'll play it !!!
tabs and chords, guitar tabs, music transcription, music technology, deep learning, music information retrieval, transcribe into tabs & chords, chordify, music renditions, songsterr, reverbnation, tabulature, bollywood chords, ultimate guitar, yousician, guitar lessons, acoustic guitar, electric guitar, guitar tuner, 911 tabs