Black Dog Main Riff - Guitar Tabs

(/) Slide Up  (\) Slide Down  (h) Hammer On  (p) Pull Off  (b) Bend (r) Release (v) Vibrato (x) Muted

Tabs for Song : Black Dog Main Riff
BPM : 200

Song lyrics here 
E|--------------------------------------------------------------------------
B|-----------------------5--------------------------------------------------
G|-----------------5---------5h-7p5--------5--------------------------------
D|-----5--6--7--------7--------------7--7-----7-----5--7--7-----------------
A|--7-----------7--------------------------------7-----------5--7-----5--0--
E|-----------------------------------------------------------------8--------

E|--------------------------------------------------------------------
B|--------------------------------------------------------------------
G|--------------------------------------------------------------------
D|-----------------5--------------------5-----------------5-----------
A|-----5--6--7--------7-----5--6--7-----------5--6--7-----------5--6-- At this point, go back into main riff
E|--7-----------7--------7-----------7-----7-----------7-----7--------


Use manual mode to free up cursor. Paste any tab in acousterr tab maker and we'll play it !!!

About Black Dog (song) : The song was released as a single and reached the charts in several countries . As was their practice, it was not issued in the United Kingdom . It was included in Rolling Stone's "the 500 Greatest Songs of All Time" "Black Dog" is built around a call and response dynamic between the vocalist and band . The title is a reference to a nameless black labrador retriever that wandered around studios during recording . John Paul Jones was inspired by Muddy Waters' controversial 1968 album Electric Mud . The group had a difficult time with the turnaround, but John Bonham's solution was to play it straight through as if there was no turnaround . It was released in 1971. It was released as part of album Led Zeppelin IV. The genre is hard rock blues rock. The track was release in 1971. The track has an affiliation to the band(s) - Led Zeppelin.

About Led Zeppelin : Led Zeppelin formed in London in late 1968 . The group consisted of Robert Plant, guitarist Jimmy Page, bassist/keyboardist John Paul Jones, and drummer John Bonham . Their style drew from a variety of influences including blues and folk music . Led Zeppelin signed a deal with Atlantic Records that afforded them considerable artistic freedom . They achieved significant commercial success with eight studio albums released over ten years . Page wrote most of Led Zeppelin's music, particularly early in their career . Jones's keyboard-based compositions later became central to the group's catalogue . The latter half of their career saw a series of record-breaking tours that earned the group a reputation Led Zeppelin The group has many notable artists like Robert Plant,Jimmy Page,John Paul Jones,John Bonham. Their music is influenced by genres - hard rock blues rock folk rock heavy metal.

About Led Zeppelin IV : The untitled fourth studio album by Led Zeppelin IV was released on 8 November 1971 by Atlantic Records . The album is notable for featuring "Stairway to Heaven," which has been described as the band's signature song . Led Zeppelin's fourth album, untitled, is untitled . The informal setting at Headley Grange inspired the band to create songs in a variety of styles . The album is one of the best-selling albums in the US . It was one of Led Zeppelin's best sellers, shipping over 37 million copies worldwide . It had a contribution from notable artists like Jimmy Page. Its music is influenced by genres - hard rock heavy metal.

tabs and chords, guitar tabs, music transcription, music technology, deep learning, music information retrieval, transcribe into tabs & chords, chordify, music renditions, songsterr, reverbnation, tabulature, bollywood chords, ultimate guitar, yousician, guitar lessons, acoustic guitar, electric guitar, guitar tuner, 911 tabs