Aries Crawling - Guitar Tabs

(/) Slide Up  (\) Slide Down

E|--------------------------------------------------------------------------------------------------------------
B|--------------------------------------------------------------------------------------------------------------
G|-----16-------------------------------------16----------------------------------16----------------------------
D|--14----14----16/18----18----16\13----13/14----14----16/18----18----16----13/14----14----16/18----18----16\13-
A|--------------------------------------------------------------------------------------------------------------
E|--------------------------------------------------------------------------------------------------------------

E|-----------------------------------
B|-----------------------------------
G|--------16-------------------------
D|--13/14----14----16/18----18----16-
A|-----------------------------------
E|-----------------------------------


tabs and chords, guitar tabs, music transcription, music technology, deep learning, music information retrieval, transcribe into tabs & chords, chordify, music renditions, songsterr, reverbnation, tabulature, bollywood chords, ultimate guitar, yousician, guitar lessons, acoustic guitar, electric guitar, guitar tuner, 911 tabs