Guitar Tabs for Nameless Song (old)

E|--------------------------------------------------
B|-----------1-----------1-----------0-----------0--
G|--------2-----------2-----------0-----------0-----
D|--2-----------2------------0h2--------2-----------
A|--------------------------------------------------
E|--------------------------------------------------

E|--------------------------------------------------
B|-----------1-----------1-----------0-----------0--
G|--------2-----------2-----------0-----------0-----
D|---0h2--------2------------0h2--------2-----------
A|--------------------------------------------------
E|--------------------------------------------------

E|--------------------------------------------------
B|-----------1-----------1-----------0-----------0--
G|--------2-----------2-----------0-----------0-----
D|---0h2--------2------------0h2--------2-----------
A|--------------------------------------------------
E|--------------------------------------------------

E|--------------------------------------------------
B|-----------1-----------1-----------0-----------0--
G|--------2-----------2-----------0-----------0-----
D|---0h2--------2------------0h2--------2-----------
A|--------------------------------------------------
E|--------------------------------------------------
                                        Ki    Shi

E|-----------1--------------------------------------
B|--------1--------------1-----------0-----------0--
G|--------------------2-----------0-----------0-----
D|--0-----------0------------0h2--------2-----------
A|--------------------------------------------------
E|--------------------------------------------------
    ri          hu    a      le  ba     ru    ah

E|--------------------------------------------------
B|-----------1-----------1-----------0-----------0--
G|--------2-----------2-----------0-----------0-----
D|---0h2--------2------------0h2--------2-----------
A|--------------------------------------------------
E|--------------------------------------------------
                                       mih    ta
E|-----------1--------------------------------------
B|--------1--------------1-----------0-----------0--
G|--------------------2-----------0-----------0-----
D|--0-----------0------------0h2--------2-----------
A|--------------------------------------------------
E|--------------------------------------------------
    vi    ha   sha    lu    ah

E|-----------1--------------------------------------
B|--------1--------------1-----------1-----------0--
G|-----2--------------2-----------2-----------0-----
D|--0-----------0-----------0-----------------------
A|--------------------------------------------------
E|--------------------------------------3-----------
                                        me    si

E|--------------------------------------------------
B|-----------0-----------------------3--------------
G|--------0-----------0-----------0-----------0-----
D|--------------------------------------------------
A|--3-----------3-----------3-----------3-----------
E|--------------------------------------------------
    lat                ha yay

E|--------------------------------------------------
B|-----------0-----------------------0-----------0--
G|--------2--------------2--------2-----------2-----
D|--------------------0-----------------------------
A|--------------------------------------------------
E|--1-----------2-----------2-----------2-----------
    ga         gu           ay

E|--------------------------------------------------
B|-----------0-----------0-----------3-----------0--
G|--------2-----------2-----------2-----------2-----
D|--------------------------------------------------
A|--------------------------------------------------
E|--1-----------1-----------1-----------1-----------
   hed        tfi     lo    tay

E|--------------------------------------------------
B|-----------0-----------0-----------1-----------0--
G|--------1-----------1-----------1-----------1-----
D|--------------------------------------------------
A|--------------------------------------------------
E|--0-----------0-----------0-----------0-----------
                                        ki    shi

E|-----------1--------------------------------------
B|--------1--------------1-----------0-----------0--
G|--------------------2-----------0-----------0-----
D|--0-----------0------------0h2--------2-----------
A|--------------------------------------------------
E|--------------------------------------------------
   ri          hu    ma      shav ha   ru    ah

E|--------------------------------------------------
B|-----------1-----------1-----------0-----------0--
G|--------2-----------2-----------0-----------0-----
D|---0h2--------2------------0h2--------2-----------
A|--------------------------------------------------
E|--------------------------------------------------
                                        ha    lo

E|-----------1--------------------------------------
B|--------1--------------1-----------0-----------0--
G|--------------------2-----------0-----------0-----
D|--0-----------0------------0h2--------2-----------
A|--------------------------------------------------
E|--------------------------------------------------
    ni    ha    pa    tu     ah

E|-----------1--------------------------------------
B|--------1--------------1-----------1-----------0--
G|-----2--------------2-----------2-----------0-----
D|--0-----------0-----------0-----------------------
A|--------------------------------------------------
E|--------------------------------------3-----------
                                        hu       ha

E|--------------------------------------------------
B|-----------0-----------------------3--------------
G|--------0-----------0-----------0-----------0-----
D|--------------------------------------------------
A|--3-----------3-----------3-----------3-----------
E|--------------------------------------------------
    or                ha   rah

E|--------------------------------------------------
B|-----------0-----------------------0-----------0--
G|--------2--------------2--------2-----------2-----
D|--------------------0-----------------------------
A|--------------------------------------------------
E|--1-----------2-----------2-----------2-----------
    ha         nif         tah

E|--------------------------------------------------
B|-----------0-----------0-----------3-----------0--
G|--------2-----------2-----------2-----------2-----
D|--------------------------------------------------
A|--------------------------------------------------
E|--1-----------1-----------1-----------1-----------
    be         ley   lo     tay

E|--------------------------------------------------
B|-----------0-----------0-----------1-----------0--
G|--------1-----------1-----------1-----------1-----
D|--------------------------------------------------
A|--------------------------------------------------
E|--0-----------0-----------0-----------0-----------
                                        hu    a

E|-----------1--------------------------------------
B|--------1--------------1-----------0-----------0--
G|-----2--------------2-----------0-----------0-----
D|--0-----------0------------0h2--------2-----------
A|--------------------------------------------------
E|--------------------------------------------------
    ta    ha    o     leh    e       lay

E|--------------------------------------------------
B|-----------1-----------------------0--------------
G|--------2-----------2-----------2-----------2-----
D|--2-----------2-----------3-----------3-----------
A|--------------------------------------------------
E|--------------------------------------------------

E|--------------------------------------------------
B|-----------1-----------------------0--------------
G|--------2-----------2-----------2-----------2-----
D|--4-----------4-----------3-----------3-----------
A|--------------------------------------------------
E|--------------------------------------------------

E|-----------1-----------------------1--------------
B|--------1--------------1--------1--------------1--
G|--------------------1-----------------------1-----
D|--------------------------------------------------
A|--------------------------------------------------
E|--1-----------1-----------1-----------1-----------
    bin   du         day                     hol
    
E|--------------------------------------0-----------
B|-----------1-----------1-----------0-----------0--
G|--------2-----------2-----------0-----------0-----
D|---0h2--------2------------0h2--------------------
A|--------------------------------------------------
E|--------------------------------------------------
     fot     a      lay                       tmu

E|-----------3-----------------------1--------------
B|-----------------------3-----------------------1--
G|--------3-----------3-----------2-----------2-----
D|--------------------------0-----------0-----------
A|--------------------------------------------------
E|--3-----------3-----------------------------------
   not                 u    ne                  sha

E|--------------------------------------------------
B|-----------0-----------0-----------0-----------0--
G|--------1-----------1-----------1-----------1-----
D|--------------------------------------------------
A|--2-----------2-----------2-----------2-----------
E|--------------------------------------------------
  mot

E|--------------------------------------------------
B|-----------0-----------0-----------0-----------0--
G|--------1-----------1-----------1-----------1-----
D|--------------------------------------------------
A|--------------------------------------------------
E|--0-----------0-----------0-----------0-----------
                ve   she   mot               she

E|-----------------5-----8--------------------------
B|-----------5--------------------5-----------------
G|--------5--------------------5--------------------
D|--3-----------3-----------4-----------------------
A|--------------------------------------------------
E|--------------------------------------------------
   mot                                      a   ta

E|-----------1--------------------------------------
B|--------1--------------1-----------0-----------0--
G|--------------------2-----------0-----------0-----
D|--0-----------0------------0h2--------2-----------
A|--------------------------------------------------
E|--------------------------------------------------
    ba       ve  ho        leh  e       lay

E|--------------------------------------5-----------
B|-----------1-----------1--------------------------
G|--------2-----------2-----------2-----------------
D|---0h2--------2-----------2-----------------------
A|--------------------------------------------------
E|--------------------------------------------------


E|--------------------------------------------------
B|-----------1-----------0-----------1-----------1--
G|--------2-----------2-----------2-----------2-----
D|--2-----------3-----------4-----------4-----------
A|--------------------------------------------------
E|--------------------------------------------------
   ya

E|--------------------------------------------------
B|-----------0-----------1-----------3-----------1--
G|--------2-----------2-----------2-----------2-----
D|--3-----------3-----------3-----------3-----------
A|--------------------------------------------------
E|--------------------------------------------------
             a    la       ta                   sa
tabs and chords, guitar tabs, music contests, music covers, songsterr, reverbnation, renditions, tabulature, bollywood chords, ultimate guitar, yousician, guitar lessons, torrins, fender, gibson, acoustic guitar, electric guitar, youtube covers, gootar, guitar tuner, A-Z tabs, 911 tabs